Out of My Depth bass tab

Post your tab, or find the tab you've been looking for.
Post Reply
User avatar
Hoponpop
Posts: 695
Joined: Fri Oct 10, 2003 5:56 pm
Location: Fairfax, VA
Contact:

Out of My Depth bass tab

Post by Hoponpop » Wed Jul 07, 2004 8:36 pm

this song has one of the coolest basslines ive ever heard; i got a tab down i just wanna see what you guys think i should change around or alter

---------------------------------------------
-------------------7-9---------------------
---------7h8-99-------------------------- <~~play that three times the first time
-1/7-9------------------------------------

---------------------------------------------
------------------5-7----------------------
-------5h6-77----------------------------
-5-7---------------------------------------


---------------------------------------------
-----------------35-------------------------
------3h4-55-----------------------------
-3-5--------------------------------------- then go right back up the line..../\

and for the chorus:
---------------------------------------------
---------------------------------------------
-------4--7-7-7--2-2-2------------------
-4-4----------------------2-2-2----------


and thats it....ive never seen this bass part tabbed anywhere and i dont know why :?
Image

Post Reply