Kill the sun

Post your tab, or find the tab you've been looking for.
Post Reply
User avatar
silverain2
Posts: 64
Joined: Sat Mar 06, 2004 9:37 pm
Location: St. Louis, MO
Contact:

Kill the sun

Post by silverain2 » Tue Aug 17, 2004 10:43 pm

EDIT: im pretty sure this was tuned down half a step.

I made out a tab of Colorfingers "Kill the Sun"
Some of the rythms are incorrect but you gotta add your own spice.
I believe my guitar was tuned to standard tuning.

Keep on tabbin.

Oh yeah, use distortion when neccesary.

Code: Select all

      Fm 
|---------------------------------------------------------------------|
|---------------------------------------------------------------------|
|---------------------------------------------------------------------|
|---------------------------------------------------------------------|
|------4-3333------------4-3333----------4-3333-----------4-333-1-33--|
|--1-1--------4-333--1-1--------4-333-11--------4-333-1-1-------------|

  F E4  F E4 G      F                  F       A#sus4A#   F         G
|-1-0---1-0--3--1-0---0------1-----0--11111-11111-xx-xx-11111-11111-3---|
|-1-0---1-0--5------3---3--1-1--3-----11111-11111-44-33-11111-11111-5---|
|-2-2---2-2--5---------------2--------22222-22222-33-33-22222-22222-5---|
|----------------------------3------------------------------------------|
|----------------------------3------------------------------------------|
|----------------------------1------------------------------------------|
  
    A#   G    F   G   A#   G   F    G
|-111111-3--11111-3--1111--3--11111-3----|
|-333333-5--11111-5--3333--5--11111-5----|
|-333333-5--22222-5--3333--5--22222-5----|
|----------------------------------------|
|----------------------------------------|
|----------------------------------------|             
    G     G           A#         F                     There are a few variations
|----------------------------111111111-11111111111-|--11111-333333-5555(6)-3-1111--|
|----------------------------111111111-11111111111-|--11111-555555-6666----5-33333-|
|-----(0)---(0)--------------222222222-22222222222-|--22222-555555-5555----5-33333-|
|--55-(5)-5-(5)-555--88-8888---(33-333-333-333)----|-------------------------------|
|--55-----5-----555--88-8888---(33-333-333-333)----|-------------------------------|
|--33-----3-----333--66-6666---(11-111-111-111)----|-------------------------------|

End Solo
guitar 1
|--1-0---0-----5-333-3-5-3-111--0h1h0-------0h1h0-------5-333-3-5-3-111-|
|------3---3-1------------------------3-1-1-------3-1-1-----------------|
|-----------------------------------------------------------------------|
|-----------------------------------------------------------------------|
|-----------------------------------------------------------------------|
|-----------------------------------------------------------------------|

|-0h1h0---0------|-----|--3h5-1-|
|-------3---3-1-1|-3-1-|--------|
|----------------|-----|--------|
|----------------|-----|--------|
|----------------|-----|--------|
|----------------|-----|--------|

guitar 2
       F     C#    C    A#           G  F
|------1-----4-----3-----1-------|---3--1---|--1=<-|
|------1-----6-----5-----3-------|---3--1---|--1=<-|Let ring with feedback
|------2-----6-----5-----3-------|---4--2---|--2=<-|
|------3-----6-----5-----3-------|---5--3---|--3=<-|
|------3-----4-----3-----1-------|---5--3---|--3=<-|
|------1-----4-----3-----1-------|---3--1---|--1=<-|

Copyright 2004 Silverain2
Last edited by silverain2 on Thu Jul 26, 2007 8:56 pm, edited 4 times in total.

User avatar
clearvampire
Posts: 253
Joined: Fri Oct 10, 2003 3:46 pm
Location: Huntington Beach, CA
Contact:

Post by clearvampire » Wed Aug 18, 2004 6:43 pm

Nice job! Thanks for the tab. :D

:arrow: jordan.
alive.

Post Reply