I Just Wanna Tab Sex With a Movie Star

Post your tab, or find the tab you've been looking for.
Post Reply
User avatar
Copper
Posts: 1059
Joined: Fri Oct 10, 2003 4:53 pm
Location: Michigan

I Just Wanna Tab Sex With a Movie Star

Post by Copper » Thu Oct 07, 2004 11:52 am

Just chords, but still usable, I think.

Code: Select all

"Sex With a Movie Star"
Tuning:  Standard (I don't know if the recording is in standard or 1/2 step down, but you can play along in standard so it doesn't really matter)
Tabbed by:  copperforever@aol.com

Verse:
  E5       E5(m)    C#5      A5
|-------------------------------------|
|-------------------------------------|
|-99999999-88888888-66666666-22222222-|
|-99999999-99999999-66666666-22222222-|
|-77777777-77777777-44444444-00000000-|
|-------------------------------------|

E5          E5(m)                            C#5
Hollywood girls need a pretty silver star 
                                     A5
They can hide in the bottom of their breakdown 
E5        E5(m)
Hollywood girls need a secret 
         C#5                        A5
They can hide in the buttons at the bottom of their purse 

B5                            A5                         
Everyone you meet is like the princess
                       E5  E5(m)
Of the underground
B5                          A5
Everyone you meet is either kissing ass 
                       E5  E5(m)
or going down 
 
B5  
Make yourself a promise that you 
A5                             E5  E5(m)
don't intend to keep now 
               B5
You can either work out with your trainer 
   A5                       
or catch up on some sleep
        F#5                         A5
You can always find a classy way to sell yourself cheap 

E5   C#5       B5           A5
True love will never mean a thing to me 
E5       C#5           B5        A5
I'm just looking for a ride in a stolen car
E5   C#5     B5          A5
True love is not what it pretends to be 
F#5               A5
I just wanna have sex with a movie star 
E5            E5(m)
I don't wanna think about tomorrow 
E5            E5(m)
I don't wanna think about tomorrow  

E5     C#5  B5         A5
Sex,        oh, I just wanna have sex 
E5   C#5  B5     A5
		I just wanna have sex 
E5   C#5  B5     A5
		I just wanna have fun 
F#5           A5
I don't wanna think about tomorrow 
F#            A5
I don't wanna think about tomorrow now
Last edited by Copper on Sat Aug 26, 2006 11:50 pm, edited 1 time in total.

George
Posts: 164
Joined: Sun Oct 12, 2003 7:26 pm
Location: Corvallis, Oregon
Contact:

Post by George » Thu Oct 07, 2004 3:25 pm

Great tab ... just a couple comments. With the tuning, I'm pretty sure the guitars were recorded tuned 1/2 step down and then sped up slightly with Pro Tools, so everything sounds about a quarter step flat from standard tuning. The only other thing is I hear the verse sounding a little bit different, try playing this twice for each verse:

Code: Select all

|-----------------|-----------------|-----------------|-----------------|
|-----------------|-----------------|-----------------|-----------------|
|-----------------|-----------------|-----------------|-----------------|
|-9-9-9-9-9-9-9-9-|-9-9-9-9-9-9-9-9-|-6-6-6-6-6-6-6-6-|-7-7-7-7-7-7-7-7-|
|-7-7-7-7-7-7-7-7-|-7-7-7-7-7-7-7-7-|-4-4-4-4-4-4-4-4-|-4-4-4-4-4-4-4-4-|
|-----------------|-----------------|-----------------|-----------------|

|-----------------|-----------------|-----------------|-----------------|
|-----------------|-----------------|-----------------|-----------------|
|-----------------|-----------------|-----------------|-----------------|
|-9-9-9-9-9-9-9-9-|-9-9-9-9-9-9-9-9-|-6-6-6-6-6-6-6-6-|-----------------|
|-7-7-7-7-7-7-7-7-|-7-7-7-7-7-7-7-7-|-4-4-4-4-4-4-4-4-|-7-7-7-7-7-7-7-7-|
|-----------------|-----------------|-----------------|-5-5-5-5-5-5-5-5-|

User avatar
Hoponpop
Posts: 695
Joined: Fri Oct 10, 2003 5:56 pm
Location: Fairfax, VA
Contact:

Post by Hoponpop » Mon Oct 18, 2004 4:10 pm

what a clever topic title. :wink:
Image

User avatar
silverain2
Posts: 64
Joined: Sat Mar 06, 2004 9:37 pm
Location: St. Louis, MO
Contact:

Post by silverain2 » Fri Oct 29, 2004 10:17 pm

tuned down 1/4
They might think you think you’re happy
Yeah maybe for a minute or two
They can’t make you laugh
No they can’t make you feel the way that I do

Post Reply