Deep In, Empty Out

Post your tab, or find the tab you've been looking for.
Post Reply
User avatar
cien_bolas
Posts: 1469
Joined: Fri Oct 10, 2003 11:35 am
Location: Monterrey, Mexico

Deep In, Empty Out

Post by cien_bolas » Wed Feb 16, 2005 5:33 pm

Anybody has the tab for this song? I would really love to be able to play it in my guitar.

attE: cien_bolas
The only hardcore everclear mexican fan. VIVA!

User avatar
cien_bolas
Posts: 1469
Joined: Fri Oct 10, 2003 11:35 am
Location: Monterrey, Mexico

Post by cien_bolas » Tue Feb 22, 2005 12:44 am

ok, i think i got it.

Code: Select all

e|-----------------------------------| 
B|-----------------------------------|   X 2
G|-----------------------------------|
D|--5---5-5-6-7---5---5-5-6-7---10---|
A|--5---5-5-6-7---5---5-5-6-7---10---|
E|--3---3-3-4-5---3---3-3-4-5---8----|

yeah, i hear the hum in my ear
it keeps me awake sometimes
e|-----------------------------------| 
B|-----------------------------------|
G|-----------------------------------|
D|--5---5-5-6-7---5---5-5-6-7---10---|
A|--5---5-5-6-7---5---5-5-6-7---10---|
E|--3---3-3-4-5---3---3-3-4-5---8----|

i can deal with most everything
you're out of my mind when you're out of my sight
e|----------------------------------------| 
B|----------------------------------------|
G|----------------------------------------|
D|--5---5-5-6-7---5---5-5-6-7---10-9-8-7--|
A|--5---5-5-6-7---5---5-5-6-7---10-9-8-7--|
E|--3---3-3-4-5---3---3-3-4-5---8--7-6-5--|

i would give you everything
deep in and empty out
e|--------------------------------------------| 
B|--------------------------------------------|
G|--------------------------------------------|
D|--7-8-9-10---10-9-8-7---7-8-9-10---10-9-8-7-|
A|--7-8-9-10---10-9-8-7---7-8-9-10---10-9-8-7-|
E|--5-6-7-8----8--7-6-5---5-6-7-8----8--7-6-5-|


and so on.

the only change is:

i remember now
you not me
e|----------------------------------|
B|----------------------------------|
G|----------------------------------|
D|--2-2-2-2-3-4-5-5-5-5-4-3-2-2-2-2-|
A|--2-2-2-2-3-4-5-5-5-5-4-3-2-2-2-2-|
E|--0-0-0-0-1-2-3-3-3-3-2-1-0-0-0-0-|
i know i'm missing the solo part, but i'm working on it. how's this tab? i hope not so bad.

attE: guitar_bolas
The only hardcore everclear mexican fan. VIVA!

User avatar
silverain2
Posts: 64
Joined: Sat Mar 06, 2004 9:37 pm
Location: St. Louis, MO
Contact:

Post by silverain2 » Fri Apr 08, 2005 8:14 pm

here ya go, this should help ya

Code: Select all

|-3-------------------------3---------------------3-------|
|--3-------------------------3--------------------3-------|
|---0-------------------0-----0---------------0------0----|
|----0--------------0h2--------0------------2---0---------|
|-----2---2-0---0~--------------2---2-0---0---------------|
|------3------3-----------3------3------3--------------3--|
  downstroke                 downstroke
They might think you think you’re happy
Yeah maybe for a minute or two
They can’t make you laugh
No they can’t make you feel the way that I do

Post Reply