My Sexual Tab

Post your tab, or find the tab you've been looking for.
Post Reply
User avatar
silverain2
Posts: 64
Joined: Sat Mar 06, 2004 9:37 pm
Location: St. Louis, MO
Contact:

My Sexual Tab

Post by silverain2 » Thu Mar 03, 2005 12:24 am

Code: Select all

My Sexual Life
tabbed by Silverain2

[standard]

guitar 1
|--7-7-7-7-7-7-7-7-7-7-7-7-7-7-7-7-7-7----|
|--7-7-7-7-7-7-7-7-7-7-7-7-7-7-7-7-7-7----|
|--7-7-7-7-7-7-7-7-7-7-7-7-7-7-7-7-7-7----|
|-----------------------------------------|
|-----------------------------------------|
|-----------------------------------------|
   play bmin in background until chorus?    

guitar 2
|---9-9-9-9-9-9-9-9-9-9-10-10-10-10-10-9-7-|
|-7-7-7-7-7-7-7-7-7-7-7--7--7--7--7--7-7-7-|
|-7-7-7-7-7-7-7-7-7-7-7--7--7--7--7--7-7-7-|
|-0----------------------------------------|
|------------------------------------------|
|------------------------------------------|

|---7-7-7-7-7-7-7--9--7-7--2-2--|
|-7-7-7-7-7-7-7-7-10--7-7--3-3--|
|-6-6-6-6-6-6-6-6--9--7-7--2-2--|
|-7-7-7-7-7-7-7-7---------------|
|-0-----------------------------|
|-------------------------------|



   Gmaj           A7                     D
Swimmin in the heavy water buried in the sand

             Bmin                      Gmin
Happy hearts fall from my shakey hands

 F#min     Emin        Dmaj
I can't hide my sexual life

          Dmaj
My sexual liiiiieeaaaiife

|--0-----------3-2----0-----------0---|
|----3-------3----------3-0-----3---3-|
|------2-2s4----------------2s4-------|
|-------------------------------------|
|-------------------------------------|
|-------------------------------------|
This sounds close but its hard to hear the right part.
This song has an awesome clean sound to it. I love it all.
They might think you think you’re happy
Yeah maybe for a minute or two
They can’t make you laugh
No they can’t make you feel the way that I do

Post Reply