A Shameless Use Of Charm

Post your tab, or find the tab you've been looking for.
Post Reply
George
Posts: 164
Joined: Sun Oct 12, 2003 7:26 pm
Location: Corvallis, Oregon
Contact:

A Shameless Use Of Charm

Post by George » Tue Mar 13, 2007 6:13 pm

Under ordinary circumstances, I can't say I would enjoy listening to Art brag about taking advantage of some mindless slut. But for whatever reason, this song has really grown on me, so I decided to tab it out. Comments are always appreciated, and if anyone has any other EC tab requests, feel free to post them here. This forum seems to have died again and it'd be nice if things picked up a little bit.

Code: Select all

Everclear
"A Shameless Use Of Charm"
All guitars are tuned down one full step (Low to high: D G C F A D)

Intro
D|-------------------------|
A|----------8--------------|
F|----6--7-----7--6--------|
C|-7-----------------7--7\-|
G|-------------------------|
D|-------------------------|

Verse
D|-----------------------------|
A|-----------------------------|
F|---------5--------------5----|
C|---5-----4--------5-----4----|
G|---4---5----0-----4---5----0-|
D|-5--------------5------------|

End of Verse ("He was addicted to her body...")
D|--8----7----5---------8----7---------------|
A|-10----9----8--------10----9---------9-----|
F|--8----7----6---------8----7------------11-|
C|-10----9----5--------10----9----/10--------|
G|--8----7----7---------8----7---------------|
D|------------5------------------------------|

Chorus
D|------------------------------------------|-------------------------------|
A|------------------------------------------|-------------------------------|
F|-5------7---------------------------------|-5------7----------------------|
C|-5------7------7--------5-7---7-------5-7-|-5------7------7-------5-7--7\-|
G|-3------5------7---5h7--------7---5h7-----|-3------5------7---5h7---------|
D|---------------5--------------5-----------|---------------5---------------|

Lead Fill
D|----------------------------------------------------------------|
A|----------<-------Hold-Bend----->------8---8---8---8--------7-5-|
F|-----5~---7b9-9--9-9--9-9--9-9--9r7b9--7b9-9---7b9-9--5-----7-5-|
C|-/7~-----------------------------------------------------7------|
G|----------------------------------------------------------------|
D|----------------------------------------------------------------|

Bridge (Guitar 1)
D|-----------------------------------------|
A|-----------------------------------------|
F|-9-9-9-9-9-9-9-9-9-9-9-9-9-9-9-9-9-9-9-9-|
C|-----------------------------------------|
G|-----------------------------------------|
D|-----------------------------------------|

Bridge (Guitar 2)
D|----------------------------------------------------------------------|
A|----------------------------------------------------------------------|
F|-------8-----------------7------------------------5-----------------5-|
C|----7-----------8-----6------------------5-----4-----------5-----4----|
G|-8-----------7-----7------------------4-----5-----------4-----5-------|
D|----------8-----------------3-3-4--5-----------------5----------------|

Last chorus ("True love lost...")
D|------------------------------------|
A|------------------------------------|
F|------------------------------------|
C|-7--7-------5-5-6--7--7-------5-5-6-|
G|-7--7--x-x--5-5-6--7--7--x-x--5-5-6-|
D|-5--5--x-x--3-3-4--5--5--x-x--3-3-4-|

guthrie
Posts: 25
Joined: Wed May 10, 2006 7:14 pm
Location: Baltimore

Post by guthrie » Thu Mar 15, 2007 7:10 pm

George, thanks again for all the effort. I wasn't really that fond of this song until I started playing the tab. I agree with the dying down of this thread, but I know all of the parts (kind of sort of) to the songs of WTTDC that I want, and pretty much all their older songs as well. If it's not an inconvenience to you, I'll start posting requests for some of the rarer stuff. I just didn't want to keep asking for things and not give back anything. Like I said (and this goes out to everybody), I can tab out most everything they've done prior to WTTDC including a lot of the solos if anyone wants them. This is getting long winded so I'll stop, but thanks again George. Your obviously the king of this thread.

Post Reply