Should I Buy You A New Life?

Post your tab, or find the tab you've been looking for.
User avatar
silverain2
Posts:64
Joined:Sat Mar 06, 2004 9:37 pm
Location:St. Louis, MO
Contact:
Should I Buy You A New Life?

Post by silverain2 » Wed Aug 18, 2004 10:34 pm

Hey, silverain2 here with another tab. I added the x's for my own personal rythym. Enjoy!

Code: Select all

G major
|--15--15---15--15---15--15--15--15---|
|----15-------15-------15------15-----|
|-------------------------------------|
|--555555--5555555--5555555--555555---|
|--555555--5555555--5555555--555555---|
|--333333--3333333--3333333--333333---|

G major
|---3-----------------3-----------------3----------------3----------------------|
|---3-----------------3-----------------3----------------3----------------------|
|---0-----------------0-----------------0----------------0----------------0-----|
|---------------------------------------------------------------------0h2-------|
|-2---xx-x-x-0h2-0--2---xx-x-x-0h2-0--2---xx-x-x-0h2-0-2---xx------2------------|
|-3-----------------3-----------------3----------------3-------3h5---3----------|
 
G major
|---3-----------------3-----------------3--------------3333333----|
|---3-----------------3-----------------3--------------3333333----|
|---0-----------------0-----------------0--------------0000000----|
|------------------------------------------------------0000000----|
|-2---xx-x-x-0h2-0--2---xx-x-x-0h2-0--2---xx-x-x-0h2-0-2222222----|
|-3-----------------3-----------------3----------------3333333----|

G major
|---3333333--3333333--3333333--333333---------------|
|---3333333--3333333--3333333--333333---------------|
|---0000000--0000000--0000000--000000---------------|
|---0000000--0000000--0000000--000000--------0------|
|---2222222--2222222--2222222--222222----0h2--------|
|---3333333--3333333--3333333--333333--3------------|

G major
|---3-----------------3-----------------3----------------3-------------------|
|---3-----------------3-----------------3----------------3----0h3h0----------|
|---0-----------------0-----------------0----------------0----------0h2-0----|
|----------------------------------------------------------------------------|
|-2---xx-2-2-0h2-0--2---xx-2-2-0h2-0--2---xx-2-2-0h2-0-2---xx----------------|
|-3-----------------3-----------------3----------------3---------------------|

G major
|---3-----------------3-----------------3--------------3333333----|
|---3-----------------3-----------------3--------------3333333----|
|---0-----------------0-----------------0--------------0000000----|
|------------------------------------------------------0000000----|
|-2---xx-2-2-0h2-0--2---xx-2-2-0h2-0--2---xx-2-2-0h2-0-2222222----|
|-3-----------------3-----------------3----------------3333333----|

            3 times                         4th time               
   G maj     B7      Emin    Cmaj        Gmaj     Emin      Cmaj 
|--3333-xx--2222-xx--0000-xx-3333-xx--|--3333-xx--0000--xx--33333--|
|--3333-xx--0000-xx--0000-xx-1111-xx--|--3333-xx--0000--xx--11111--|
|--0000-xx--2222-xx--0000-xx-0000-xx--|--0000-xx--0000--xx--00000--|
|--0000-xx--1111-xx--2222-xx-2222-xx--|--0000-xx--2222--xx--22222--|
|--2222-xx--2222-xx--2222-xx-3333-xx--|--2222-xx--2222--xx--33333--|
|--3333-xx--0000-xx--0000-xx-0000-xx--|--3333-xx--0000--xx--00000--|

SOLO
|-15-14-12-10-12------------------------------|
|--------------------8------8---8~------------|
|----------------7h9--9-7h9---9---------------|
|---------------------------------------------|
|---------------------------------------------|
|---------------------------------------------|

    G major
|---3333333--3333333--3333333--333333--------|
|---3333333--3333333--3333333--333333--------|
|---0000000--0000000--0000000--000000--------|
|---0000000--0000000--0000000--000000--------|
|---2222222--2222222--2222222--222222--------|
|---3333333--3333333--3333333--333333--------| 

Quiet part, strum and let ring~
|--3~-----2~-----0~------3~-----|
|--3~-----0~-----0~------1~-----|
|--0~-----2~-----0~------0~-----|
|--0~-----1~-----2~------2~-----|
|--2~-----2~-----2~------3~-----|
|--3~-----0~-----0~------0~-----|

             3 times                       4th time                  
|--3333-xx--2222-xx--0000-xx-3333-xx--|--3333-xx--0000--xx--33333--|
|--3333-xx--0000-xx--0000-xx-1111-xx--|--3333-xx--0000--xx--11111--|
|--0000-xx--2222-xx--0000-xx-0000-xx--|--0000-xx--0000--xx--00000--|
|--0000-xx--1111-xx--2222-xx-2222-xx--|--0000-xx--2222--xx--22222--|
|--2222-xx--2222-xx--2222-xx-3333-xx--|--2222-xx--2222--xx--33333--|
|--3333-xx--0000-xx--0000-xx-0000-xx--|--3333-xx--0000--xx--00000--|

Copyright 2004 Silverain2

Post Reply