Tabbin disease

Post your tab, or find the tab you've been looking for.
Post Reply
User avatar
silverain2
Posts:64
Joined:Sat Mar 06, 2004 9:37 pm
Location:St. Louis, MO
Contact:
Tabbin disease

Post by silverain2 » Fri Aug 20, 2004 1:37 pm

Here's another tab you might find useful. As a matter of fact, I think it's the only right tab of Your New Disease on the internet! Enjoy my fellow guitar players.

Code: Select all

INTRO

guitar1                 A major
|--------9---------------------------9-----------------------|
|-----10---10----10-12h10---------10---10----10-12h10--------|
|-------------------------11h9------------------------11h9---|
|--11---------11---------------10---------10-----------------|
|------------------------------------------------------------|
|------------------------------------------------------------|

guitar 2
    A    A  E  F#m  F#m   D      
|----------------------------------|
|----------------------------------|
|----------------------------------|
|--77~--77--22--44~--44--1212------|
|--77~--77--22--44~--44--1212------|
|--55~--55--00--22~--22--1010------|

p.m.
   A    A     E    F#m   F#m    D     
|------------------------------------------|
|------------------------------------------|
|------------------------------------------|
|--7~--------------------------------------|
|--7~--7777--2222--4444--444--12121212-----|
|--5~--5555--0000--2222--222--10101010-----|
I heard the news today...

    A    F   E      D       C   B 
|-----------------------------------------|
|-----------------------------------------|
|-----------------------------------------|
|--7777--33--22--12121212--1010--99-------|
|--7777--33--22--12121212--1010--99-------|
|--5555--11--00--10101010---8-8--77-------|
I don't wanna play your games...

    A     G   A    G  A         A
|------------------------|-----------------|
|------------------------|-----------------|
|------------------------|-----------------|
|--77-77-55-77--77-55-77-|--77-77-77-------|
|--77-77-55-77--77-55-77-|--77-77-77-------|
|--55-55-33-55--55-33-55-|--55-55-55-------|
I want to do it my way...    Woah...

END
guitar 2
        A major                        G#
|----------------------------------|-------------|
|-10----10---10----10---10----10---|-9---9-------|
|----12----9----12----9----12----9-|---8---7~----|
|----------------------------------|-------------|
|----------------------------------|-------------|
|----------------------------------|-------------|

Copyright 2004 Silverain2
Last edited by silverain2 on Thu Aug 26, 2004 1:13 am, edited 2 times in total.

User avatar
Copper
Posts:1059
Joined:Fri Oct 10, 2003 4:53 pm
Location:Michigan

Post by Copper » Fri Aug 20, 2004 2:17 pm

I really like this song, playing it should be good fun. Thanks for the tab.

User avatar
Colorfinger
Site Contributor
Posts:1118
Joined:Mon Jan 05, 2004 4:44 pm
Location:Allentown, PA

Post by Colorfinger » Sun Aug 22, 2004 1:23 pm

thumbs up on that.

I love the bass riff of the song too.
the only thing worth listening to these days
http://www.myspace.com/mycontrolpanel

User avatar
cien_bolas
Posts:1469
Joined:Fri Oct 10, 2003 11:35 am
Location:Monterrey, Mexico

Post by cien_bolas » Tue Jan 25, 2005 11:02 pm

this was exactly what i was looking for. very nice, silverain2.
The only hardcore everclear mexican fan. VIVA!

User avatar
silverain2
Posts:64
Joined:Sat Mar 06, 2004 9:37 pm
Location:St. Louis, MO
Contact:

Post by silverain2 » Wed Mar 02, 2005 11:55 pm

its kinda necessary to play the d chord on the bottom 3 strings because the middle strings seem to give off kind of a lighter sound and not that heavy overpowering thingy art has going on.
They might think you think you’re happy
Yeah maybe for a minute or two
They can’t make you laugh
No they can’t make you feel the way that I do

Post Reply