Glorius Fixes

Post your tab, or find the tab you've been looking for.
User avatar
silverain2
Posts:64
Joined:Sat Mar 06, 2004 9:37 pm
Location:St. Louis, MO
Contact:
Glorius Fixes

Post by silverain2 » Thu Mar 03, 2005 3:33 pm

Code: Select all

Glorius
[tuned down half step]?

|--5/3-3-3--------|
|--5/3-3s0-----0--|
|--0-------2-4-0--|
|----------0---0--|
|-----------------|
|-----------------|

intro- sounds like something art would play

|---------3---------3--------0----------3-----|
|---------3---------3--------1----------1-----|
|------0--0------0--0-----2--2-------0--0-----|
|------0---------0------2-2--2-------2--2-----|
|-----------------------0----0---0h3----3-----|
|--0h3-------0h3------------------------------|
This is just what i think it sounds like. If anyone agrees then cool. :) The rest of the song was tabbed out on ultimate guitar.
They might think you think you’re happy
Yeah maybe for a minute or two
They can’t make you laugh
No they can’t make you feel the way that I do

Post Reply