Page 1 of 1

For Pete's Sake Tab

Posted: Sat Aug 06, 2005 12:15 am
by cien_bolas
I have just received that song and think i can get this tab in less than a week. I already have about a 40%.

attE: cien_bolas

Re: For Pete's Sake Tab

Posted: Sat Aug 06, 2005 4:13 am
by short black hair
cien_bolas wrote:I have just received that song and think i can get this tab in less than a week. I already have about a 40%.

attE: cien_bolas
YAY you got it from me YAY. i know you can make it. :D keep A.P. Nation on bro.

Posted: Wed Sep 14, 2005 9:54 pm
by silverain2
just trying to keep busy

Code: Select all

For Pete's Sake
by Silverain2

|-------------------------------|
|-------------------------------|
|-------------------------------|
|--2-2-xx-------2-2-xx----------|
|--2-2-xx-2-----2-2-xx-2--------|
|--0-0-xx-2h4p2-0-0-xx-2h4p2-0--|
 
     C#5       F#5      A5           E5
|------------------------------------------------|
|------------------------------------------------|
|--66666666--------------------------------------|
|--66666666--4444444--7777777--222222222222222---|
|--44444444--4444444--7777777--222222222222222---|
|------------2222222--5555555--000000000000000---|
 
                                                                    Emaj7
|-0-0-0-0-0-0-0-0-0-0-0-0-0-0-0-0-|-0-0-0-0-0-0-0-0-0-0-0-0-0--0--0-|-0-|
|-0-0-0-0/2-2-2-2/5-5-5-5\4-4-4-4-|-0-0-0-0/5-5/7-7/9-9-9-9-9b-9b-5-|-0-|
|---------------------------------|---------------------------------|-9-|
|---------------------------------|---------------------------------|-6-|
|---------------------------------|---------------------------------|-7-|
|---------------------------------|---------------------------------|-0-|
                                                                   strum a few times
  Emaj
|--0--|
|--0--|
|--1--|
|--2--|
|--2--|
|--0--|