Page 1 of 1

almost instant tab

Posted: Fri Aug 19, 2005 1:50 am
by silverain2
Here ya go mo' fuckas. Instant karma. Taken from the acoustic mp3. No it's not in G, suprisingly.

STANDARD TUNING

listen to the mp3 for the correct strumming pattern. thats why i put x's

Code: Select all

   Dmin          A#maj      Fmaj       Gmaj
|-----1-1-1---------------------------------------|
|-----3-3-3-xx---3-3-3----------------------------|
|--2--2-2-2-xx---3-3-3-xx---2-2-2-xx---4-4-4-xx---|
|--0----0-0-xx---3-3-3-xx---3-3-3-xx---5-5-5-xx---|
|-----------xx-1---1-1-xx-3-3-3-3-xx-5-5-5-5-xx---|
|----------------------xx-1-1-1-1-xx-3-3-3-3-xx---|

I know you want to be...

      A#maj         Cmaj
|----------------------|
|--3---3-xx--5--5-5----|
|--3---3-xx--5--5-5----|
|--3---3-xx--5--5-5----|
|--1---1-xx--3--3-3----|
|----------------------|

I was broken when you met me... (more strumming after 1st time)

|--------------------------------------------------------|
|--6-----------------------------------------------------|
|--7------------------------------4-xx-4-4-xx---7-x-7-7--|
|--7--7-7-7-7-7-7-5-5-5-5-5-5-5-5-5-xx-5-5-xx-8-8-x-8-8--|
|--5--5-5-5-5-5-5-3-3-3-3-3-3-3-5-5-xx-5-5-xx-8-8-x-8-8--|
|-------------------------------3-3-xx-3-3-xx-6-6-x-6-6--|

I know deep down... (varied second time) PALM MUTE

       Fmaj             Gmaj             A#maj           Cmaj
|-------------------------------------------------------------------|
|--10-10-xx-10-10-xx------------------------------------------------|
|--10-10-xx-10-10-xx--4-4-xx-4-4-xx--7-7-xx-7-7-xx--9--9-xx--9--9---|
|--10-10-xx-10-10-xx--5-5-xx-5-5-xx--8-8-xx-8-8-xx-10-10-xx-10-10---|
|---8--8-xx--8--8-xx--5-5-xx-5-5-xx--8-8-xx-8-8-xx-10-10-xx-10-10---|
|---------------------3-3-xx-3-3-xx--6-6-xx-6-6-xx--8--8-xx--8--8---|

I know someday you'll see me as i really am...


[END ON Dmin]

Posted: Fri Aug 19, 2005 12:00 pm
by yourstupidgame
The only reason it's not in G is because he tunes down. Maybe you knew that, and transcribed it for a standard tuning. Otherwise, Art plays it like it's in E minor / G major with the guitar tuned down a whole step so it sounds in D minor / F major. It's not that Art likes the sound of G major, he likes the actual chord formations.

Alex

Re: almost instant tab

Posted: Fri Oct 10, 2014 8:02 pm
by Stick Man
Tag.