Arizona Tabs

Post your tab, or find the tab you've been looking for.
Post Reply
User avatar
silverain2
Posts:64
Joined:Sat Mar 06, 2004 9:37 pm
Location:St. Louis, MO
Contact:
Arizona Tabs

Post by silverain2 » Fri Aug 04, 2006 12:49 am

Code: Select all

Your Arizona Room
by Art Alexakis

|-10-------10--9-------9-8-----------8---|--12-------12-9--|
|----11----------11-------10--10--10--10-|-----11----------|
|-------10----------10-------9---8-------|--------10-------|
|----------------------------------------|-----------------|
|----------------------------------------|-----------------|
|----------------------------------------|-----------------|

     Dmin      C               A#maj     F
|--5-5-5-5-5-3-3-3-5-5-5-5-1-1-1-1-1-1-1-1-1--1--1-1-1-1------------------|
|--6-6-6-6-6-5-5-5-6-6-6-6-3-3-3-3-3-3-1-1-1--3--1-1-1-1------------------|
|--7-7-7-7-7-5-5-5-7-7-7-7-3-3-3-3-3-3-2-2-2--3--2-2-2-2------------------|
|--7-7-7-7-7-5-5-5-7-7-7-7-3-3-3-3-3-3-3-3-3--3--3-3-3-3------------------|
|--5-5-5-5-5-3-3-3-5-5-5-5-1-1-1-1-1-1-3-3-3--1--3-3-3-3------------------|
|--------------------------------------1-1-1-----1-1-1-1------------------|


Bridge

          Amaj          A#maj             Fmaj
|--5-5-5-5-5-5-5-5--6-6-6-6-6-6-6-6---1-1-1-1-1---1-1-1-1-1----|
|--5-5-5-5-5-5-5-5--6-6-6-6-6-6-6-6---1-1-1-1-1---1-1-1-1-1----|
|--6-6-6-6-6-6-6-6--7-7-7-7-7-7-7-7---2-2-2-2-2---2-2-2-2-2----|
|--7-7-7-7-7-7-7-7--8-8-8-8-8-8-8-8---3-3-3-3-3---3-3-3-3-3----|
|--7-7-7-7-7-7-7-7--8-8-8-8-8-8-8-8---3-3-3-3-3---3-3-3-3-3----|
|--5-5-5-5-5-5-5-5--6-6-6-6-6-6-6-6---1-1-1-1-1---1-1-1-1-1----|


im not tabbing the rest

chorus...

A#maj, A#min, Fmaj, Amaj (last time end on F min)


inside your arizona room

Fmaj, Gmaj, A#maj, C#maj
Best song on the cd. Good luck guys. I am not transcribing to anything other than standard.
They might think you think you’re happy
Yeah maybe for a minute or two
They can’t make you laugh
No they can’t make you feel the way that I do

User avatar
northwestrocker
Posts:1476
Joined:Fri Nov 07, 2003 9:08 pm
Location:Portland, OR

Post by northwestrocker » Fri Sep 22, 2006 9:46 pm

solid tab man, mad props.
There're people who said I used to be a dwarf. Just not true! I was a dwarf tosser for a while, but I was young, it was dark, it was raining. -Art

Post Reply