Drama Tab King

Post your tab, or find the tab you've been looking for.
Post Reply
User avatar
LoserFreak
Board Man Whore
Posts:1236
Joined:Mon Oct 13, 2003 11:07 pm
Location:Allentown, Pa
Contact:
Drama Tab King

Post by LoserFreak » Thu Sep 07, 2006 5:06 pm

Anyone want to give "The Drama King" a shot?
I'm looking at you, Silverain.

User avatar
silverain2
Posts:64
Joined:Sat Mar 06, 2004 9:37 pm
Location:St. Louis, MO
Contact:

Post by silverain2 » Thu Sep 07, 2006 11:23 pm

Code: Select all

The Drama King
by Art Alexakis
tabbed by Silverain

[STANDARD TUNING?]

|------------------------------------------------------|
|------------------------------------------------------|
|--7-7-7---7-7---------------4-4-4---4-4---------------|
|--7-7-7h9-7-7--5-5-5---5-5--4-4-4---4-4--5-5-5---5-5--|
|--5-5-5---5-5--5-5-5h7-5-5--2-2-2h5-2-2--5-5-5h7-5-5--|
|---------------3-3-3---3-3---------------3-3-3---3-3--|
she left him a note...


    Bmin        Gmaj            Dmaj              Amaj
losing my mind, nothing seems right, i dont know who i am anymore...

 Bmin           Gmaj            Emin                  (Amaj)
No more drama, No more pain, though we argue... bein with is so goddamn hard

|--10-10-10/12-12-12/14-14-14--xx---|
|-----------------------------------|
|-----------------------------------|
|-----------------------------------|
|-----------------------------------|
|-----------------------------------|


after second guitar play intro as chords

it sounds good to fingerpick chords at the quiet verse
good luck fellow geetar players.
They might think you think you’re happy
Yeah maybe for a minute or two
They can’t make you laugh
No they can’t make you feel the way that I do

guthrie
Posts:25
Joined:Wed May 10, 2006 7:14 pm
Location:Baltimore

Post by guthrie » Fri Sep 08, 2006 5:20 pm

Thanks so much. Are you sure in the verse it's not a Emin instead of a Bmin? That's how I play it, but my ear isn't the greatest. Thought I'd throw it out there for anyone else interested. Thanks again for all the tabs you've put on this sight. I've gotten stuff posted from you I was never able to figure out.

User avatar
EverclearGTFABA
Posts:1031
Joined:Sun Dec 07, 2003 8:39 pm
Location:Upstate New York
Contact:

Post by EverclearGTFABA » Fri Sep 08, 2006 8:42 pm

just use the father of mine tab :lol:

Post Reply