under the western tabs

Post your tab, or find the tab you've been looking for.
Post Reply
Sounds A Lot Like Me
Posts:81
Joined:Tue Aug 03, 2004 6:58 pm
Contact:
under the western tabs

Post by Sounds A Lot Like Me » Tue Sep 12, 2006 1:44 am

okay ...

somebody, anybody ... give UNDER THE WESTERN STARS a tab.

please ????
i'm sick and tired of being held hostage by your psychotic delusions // everyone's competing for the most depressed life // and everyone is tainted by the broad brush of contempt

User avatar
silverain2
Posts:64
Joined:Sat Mar 06, 2004 9:37 pm
Location:St. Louis, MO
Contact:

Post by silverain2 » Tue Sep 12, 2006 5:34 pm

Code: Select all

Under The Western Stars
by Art Alexakis
tabbed by Silverain

|--*12---|
|--------|
|--------|
|--------|
|--------|
|--------|

harmonic or feedback leading into keyboard

                 E7    A7   C9   Gmaj
|--------|-----4--4----0-0------0--------|
|--------|-----0--0----2-2----3-3---3-2--|
|--------|-----1--1----0-0----0-0---0----|
|--------|-----0--0----2-2----2-2---0----|
|--------|-----2-----0------3-3-----2----|
|--2h3p2-|-0-0-0------------------3-3----|

Bridge:

A7, D7, E7 with fills in emin

|-------------------10-------9-----|
|--------9-9-----------------------|
|--7h9--------9h11-----7h9p7-------|
|------7-----------9---------------|
|----------------------------------|
|----------------------------------|
this track has a blues feel to it so throw in those fills. i think this is pretty damn close. good luck guys.
They might think you think you’re happy
Yeah maybe for a minute or two
They can’t make you laugh
No they can’t make you feel the way that I do

George
Posts:164
Joined:Sun Oct 12, 2003 7:26 pm
Location:Corvallis, Oregon
Contact:

Post by George » Tue Jan 30, 2007 12:00 am

Here's the intro - there are at least two guitars on the recording but this is arranged so you can play it on one:

Code: Select all

D|-----------------------------------------------|
A|-----------------------------------------------|
F|-----------------------------------------------|
C|-5h6---6-6---------7-7--------9-9--------7-5---|
G|-------5-5---------4-4--------5-5--------4-----|
D|-----0-------0-0-0------0-0-0------0-0-0-------|
If the stretch from 5 to 9 is too difficult, you can play this instead: [xx04xx].

User avatar
Stick Man
Posts:905
Joined:Mon Nov 15, 2004 1:48 pm
Location:I-O-W-A

Post by Stick Man » Tue Jan 30, 2007 12:24 am

I love puns.
In the game of chess you can never let an adversary see your pieces.

Post Reply