Clean Tab?

Post your tab, or find the tab you've been looking for.
Post Reply
User avatar
cien_bolas
Posts:1469
Joined:Fri Oct 10, 2003 11:35 am
Location:Monterrey, Mexico
Clean Tab?

Post by cien_bolas » Mon Jan 29, 2007 1:38 am

I really like this song, and since i know there are many guitar geniuses here i would like to request this tab.

Thanks everyone.

attE: cien_bolas
The only hardcore everclear mexican fan. VIVA!

George
Posts:164
Joined:Sun Oct 12, 2003 7:26 pm
Location:Corvallis, Oregon
Contact:

Post by George » Mon Jan 29, 2007 11:37 pm

It's a pretty simple song, the only trouble is tuning your guitar down a full-step. I didn't tab out the whole verse but the chords are there, and in the tab, the last chord of the chorus is only played the first time. After that, hold the F#5 [244xxx] for a while and then go up to A5 [577xxx].

Code: Select all

(Intro - Guitar 1)
D|--------------------------|------------------------------------|
A|-------9---9---9-------7--|-------9---9---9-------7------------|
F|-------9---9---9-9\7---7--|-------9---9---9-9\7---7------------|
C|-7/9---9---9-9-9-9\7---7--|-7/9---9---9-9-9-9\7---7----7-x-x-8-|
G|-5/7---7---7-----7\5---5--|-5/7---7---7-----7\5---5----5-x-x-6-|
D|-----0---------------0----|-----0---------------0--------------|

(Intro - Guitar 2)
D|------------------------------------------------------------|
A|------------------------------------------------------------|
F|----------------------------------------------------7-----8-|
C|-9-------9\7---7---------6-6-6-6-6-6-6-6-7-7-7-7-7--7-x-x-8-|
G|-7-------7\5---5---------6-6-6-6-6-6-6-6-7-7-7-7-7--5-x-x-6-|
D|---------------------9\--4-4-4-4-4-4-4-4-5-5-5-5-5----------|

Verse Chords
D|-------5------|
A|-9--7--5--7-8-|
F|-9--5--6--7-8-|
C|-9--4--7--7-8-|
G|-7--6--7--5-6-|
D|----4--5------|

Chorus
D|-------|---------------------------------|-------------------|
A|-------|---------------------------------|-----------------0-|
F|-------|---------------------------------|-----------------3-|
C|-8-9-8-|-7-7-7-7-6-6-6-6-4-4-4-4-2-2-2-2-|-7-7-7-7-6-6-6-6-4-|
G|-8-9-8-|-7-7-7-7-6-6-6-6-4-4-4-4-2-2-2-2-|-7-7-7-7-6-6-6-6-4-|
D|-6-7-6-|-5-5-5-5-4-4-4-4-2-2-2-2-0-0-0-0-|-5-5-5-5-4-4-4-4-2-|

Bridge
D|---------------------------|-------------------------------|
A|---------------------------|-------------------------------|
F|-----8--9-9p8-----------6--|-------8--9-9p8-----------6----|
C|---9----------9-------7----|-----9----------9-------7------|
G|-7------------------5------|---7------------------5--------|
D|------------------0--------|-0------------------0----------|

Post Reply